gong mandalaplanet gong tribal




daevid allen : Dreamin' a Dream
Dear Friends | High Points | Brothers | Big Daddy | Wotsa Use | Garden Song | Came To Find You | The Rapist | Sittin' in a Teashop | Fire Becomes Her | No One's Slave | Tor Song | Dear Friends

The Rapist
daevid allen : Dreamin' a Dream

Tuning: open C

Verse :

 D -------2---2-------2---2-------1---1-------1---1---- 
 C ---------0---0-------0---0-------0---0-------0---0-- 
 G -----0-----------0-----------0-----------0---------- 
 C ---4-----------4-----------3-----------3------------ 
 G ---------------------------------------------------- 
 C ---------------------------------------------------- 

 D ----0-0---0-0---2-2---2-2--- 
 C ---0-0-0-0-0-0---0-0-0-0-0-- 
 G ---------------0------------ 
 C --2-----2-----4------------- 
 G --------------------0------- 
 C --------------------------0- 

Chorus :

 D --------------------------- 
 C -----0-----0-----0-----0--- 
 G ----0-0---0-0---0-0---0-0-- 
 C ---0---0-0---0-0---0-0----- 
 G --1-----------0------------ 
 C --------5-----------0------ 

newsletter · · privacy · contact · magic hat
e-mail me when this page changes?
get website hosting by siteground