gong mandalaplanet gong tribal




daevid allen : Now is the Happiest Time of your Life
Flamenco Zero | Why do we treat ourselves like we do? | Tally and Orlando meet the Cockpot Pixie | See You on the Moontower | Poet For Sale | Crocodile Nonsense Poem | Only Make Love If You Want To | I Am | Deya Goddess

Poet For Sale

Daevid Alle : "Now is the Happiest Time of your Life

E----5--------------0----0---------------------------------------
B--------------6--------------6---------6------------------------
G---------7------------------------7-----------------------------
D----------------------------------------------------------------
A----------------------------------------------------------------
E----------------------------------------------------------------
 (x2)



E-----6--------------0----0--------------------------------------
B---------------6--------------6---------6-----------------------
G----------7------------------------7----------------------------
D----------------------------------------------------------------
A----------------------------------------------------------------
E----------------------------------------------------------------
 (x2)



(2nd guitar part, played over top of 1st guitar part)
E----------------------------------------------------------------
B--------------3----1--------------------------------------------
G---------2--------------2---------------------------------------
D----3------------------------3----------------------------------
A----------------------------------------------------------------
E----------------------------------------------------------------
 (x2)


E----------------------------------------------------------------
B----------------------------------------------------------------
G---------3---------5---------3----------------------------------
D----3---------3---------3---------3-----------------------------
A----------------------------------------------------------------
E----------------------------------------------------------------
 (x2)
 

Only Make Love If You Want To
daevid allen : Now is the Happiest Time of your Life

The 'studio' version is finger-picked. You may find it strummed on 'live' versions.

B AG B
E----------------------------------------------------------------
B----------------------------------------------------------------
G----------------------------------------------------------------
D----------------------------------------------------------------
A----------------------------------------------------------------
E----------------------------------------------------------------

Lady dear lady I   knock at your door…
I just wanna   sit by your   fire…
Tell you astory of natural   law…
and how we might conquer desire…
There in your kitchen you  seem oh so sad…
you can't even re- member your   name…
Who is theclown now,   who is thefool…
and which one is lost in the   game?


G   A B
E----------------------------------------------------------------
B----------------------------------------------------------------
G----------------------------------------------------------------
D----------------------------------------------------------------
A----------------------------------------------------------------
E----------------------------------------------------------------

Don't you know that it's  just para-noia
Don't you know there's no-thing can des-troy you
Don't you know I'd climb  mountains to  find you
But only make   love if you   want to


Ebm7   B
E----------------6-----------------------------------------------
B----------------7-----------------------------------------------
G----------------6-----------------------------------------------
D----------------8-----------------------------------------------
A----------------6-----------------------------------------------
E----------------6-----------------------------------------------

Some say you are what you   feed on
Only havefriends if you need them

D  Dsus4
E----------------------------------------------------------------
B----------------------------------------------------------------
G----------------------------------------------------------------
D----------------------------------------------------------------
A----------------------------------------------------------------
E----------------------------------------------------------------

Buthigh in your   high-rise
You're watching the   moon rise
You know that it's your time


G A D
E----------------------------------------------------------------
B----------------------------------------------------------------
G----------------------------------------------------------------
D----------------------------------------------------------------
A----------------------------------------------------------------
E----------------------------------------------------------------

to leave… And it's the happiest time of your life

newsletter · · privacy · contact · magic hat
e-mail me when this page changes?
get website hosting by siteground