gong mandalaplanet gong tribal




Gong : Angel's Egg
Other Side of the Sky | Sold to the Highest Buddha ^ Castle in the Clouds | Prostitute Poem | Givin' my Luv To You | Selene | Flute Salad | Oily Way | Outer Temple | Inner Temple | Percolations | Love is How You Make It | I Never Glid Before [bass] | Eat That Phonebook Coda

Prostitute Poem

Gong : Angel's Egg

 (n/n -> bend nth fret as if up to nth fret)

 [saxophone]
E--------------------------------------------9-8---------8-------
B---9------------------------------------8---------8-9-------6---
G-------8-9-8----------------------------------------------------
D---------------5--6/8---6-5-3---5-6-5---------------------------
A----------------------------------------------------------------
E----------------------------------------------------------------



E---8---6-5-6-5---5----------------------------------------------
B---------------------7---7--6--5--6-----------------------------
G----------------------------------------------------------------
D----------------------------------------------------------------
A----------------------------------------------------------------
E----------------------------------------------------------------

 (key change)

E----------------------------------------------------------------
B----------------------------------------------------------------
G----------------------------------------------------------------
D----------------------------------------------------------------
A----------------------------------------------------------------
E----------------------------------------------------------------



E----------------------------------------------------------------
B----------------------------------------------------------------
G----------------------------------------------------------------
D----------------------------------------------------------------
A----------------------------------------------------------------
E----------------------------------------------------------------



E----------------------------------------------------------------
B----------------------------------------------------------------
G----------------------------------------------------------------
D----------------------------------------------------------------
A----------------------------------------------------------------
E----------------------------------------------------------------
 

Selene

Gong : Angel's Egg

E----------------------------------------------------------------
B----------------------------------------------------------------
G----------------------------------------------------------------
D----------------------------------------------------------------
A---7--7-7--7---7---7---7--7-7-7--7------------------------------
E---5--5-5--5---5---5---5--5-5-5--5------------------------------
    Se-leee-ne, spi-rit of the moon (x2)


E----------------------------------------------------------------
B----------------------------------------------------------------
G----------------------------------------------------------------
D----------------------------------------------------------------
A---9--9----9--9----9--9----9----9----------2--------------------
E---7--7----7--7----7--7----7----7----------0--------------------
    My mind is made of you, tell me what to do


E----------------------------------------------------------------
B----------------------------------------------------------------
G----------------------------------------------------------------
D----------------------------------------------------------------
A---7---7-7--7-7--7-7--7-5--5-5--5-5--5-5------------------------
E---5---5-5--5-5--5-5--5-3--3-3--3-3--3-3------------------------



E----------------------------------------------------------------
B----------------------------------------------------------------
G----------------------------------------------------------------
D---------------3---------------3--------------------------------
A---------2-2-------------2-2------------------------------------
E---1-1-------------1-1------------------------------------------
    spi-            rit


E----------------------------------------------------------------
B----------------------------------------------------------------
G----------------------------------------------------------------
D----------------------------------------------------------------
A----------------------------------------------------------------
E---5---7---8--7----5---7----------------------------------------
    You can do what you want


[an error occurred while processing this directive]

Eat That Phonebook Coda

Gong : Angel's Egg

E ---------------------------------------------------------------
B ---------------------------------------------------------------
G ---------------------------------------------------------------
D ------------0---1---3--0---1-----------------0-----------------
A ------3--0---1---3-------1---3--0-----3--0----1----------------
E ----1---------------------------------1------------------------
 (4x)



E ---------------------------------------------------------------
B ---------------------------------------------------------------
G ------------0---1---3--0---1-----------------0-----------------
D ------3--0---1---3-------1---3--0-----3--0----1----------------
A ----1---------------------------------1------------------------
E ---------------------------------------------------------------
 (2x)

newsletter · · privacy · contact · magic hat
e-mail me when this page changes?
get website hosting by siteground