gong mandalaplanet gong tribal




Gong : Camembert Electrique
Radio Gnome | You Can't Kill Me | I've Bin Stoned Before | Mister Long Shanks : O Mother | I Am Your Fantasy | Dynamite | I Am Your Animal | Wet Cheese Delirium | Squeezing Sponges Over Policemen's Heads | Fohat Digs Holes In Space | Tried So Hard | Tropical Fish : Selene | Gnome The Second

You Can't Kill Me

Gong : Camembert Electrique

 |-------------------------------|
 |-------------------------------|
 |-------------1---------------1-|
 |--0-1-2--2-2---0---0--2-0-2----|
 |-------------------------------|
 |-------------------------------|


 |-------------------------------|
 |-------------------------------|
 |-------------1-----------------|
 |--0-1-2--2-2---0---0--2-0-2----|
 |-----------------------------1-|
 |-------------------------------|


I've Been Stoned Before

Gong : Camembert Electrique

   A         D      E A
E----------------------------------------------------------------
B----------------------------------------------------------------
G----------------------------------------------------------------
D----------------------------------------------------------------
A----------------------------------------------------------------
E----------------------------------------------------------------
   I've been stoned before 

             D                A   D A
E----------------------------------------------------------------
B----------------------------------------------------------------
G----------------------------------------------------------------
D----------------------------------------------------------------
A----------------------------------------------------------------
E----------------------------------------------------------------
    In Saint John's Wood Cremator-i-um 

           D         A            B           E
E----------------------------------------------------------------
B----------------------------------------------------------------
G----------------------------------------------------------------
D----------------------------------------------------------------
A----------------------------------------------------------------
E----------------------------------------------------------------
    I fell down with boredom knee deep in the snow

    A       D         E         A
E----------------------------------------------------------------
B----------------------------------------------------------------
G----------------------------------------------------------------
D----------------------------------------------------------------
A----------------------------------------------------------------
E----------------------------------------------------------------
            I've been stoned  before 
            In the    Hague, in Prague 
            Why    am I      so vague?
    Because I've been stoned  before
    

Mister Long Shanks / Oh Mother

Gong : Camembert Electrique

    Bbm…  Bm…
E----------------------------------------------------------------
B----------------------------------------------------------------
G----------------------------------------------------------------
D---------3---------------4--------------------------------------
A-------2--------------3-----------------------------------------
E---1-1------2----2----------------------------------------------
    O R T F, girl are you stoned 


E----------------------------------------------------------------
B----------------------------------------------------------------
G----------------------------------------------------------------
D---6------4--3---------------3-4----6-4----3--------------------
A-----------------6---4--------------------------6--4----3--4----
E----------------------------------------------------------------
    thanks mister Longshanks, I have o-ther fish to fry, to fry


E----------------------------------------------------------------
B----------------------------------------------------------------
G----------------------------------------------------------------
D----------------------------------------------------------------
A---4----6--7--8----13---11-4------------------------------------
E----------------------------------------------------------------
    Let  me be your Chi- na gnome
    Play me on your gram-a -phone

 ?   Bury me in your gar- den but to-day


E----------------------------------------------------------------
B----------------------------------------------------------------
G----------------------------------------------------------------
D----------------------------------------------------------------
A-------------------------4-------------0--5--5-5----------------
E---0----2----4----5---------------------------------------------
                       Oh mother, don't do it a-gain
                       Oh mother, don't do it a-gain
                       Oh mother, don't do it a-gain
                       Oh mother, don't do it a-gain


E----------------------------------------------------------------
B----------------------------------------------------------------
G----------------------------------------------------------------
D--------------4---6--6------------------------------------------
A---4---5---7----------------------------------------------------
E----------------------------------------------------------------
    The man in the parlour
    The man in the parlour
    The man in the parlour

E----------------------------------------------------------------
B----------------------------------------------------------------
G----------------------------------------------------------------
D---6---6----7----4----4-6---------------------------------------
A----------------------------------------------------------------
E----------------------------------------------------------------
    You know what he's after
    You know what he's after
    You know what he's after

E----------------------------------------------------------------
B----------------------------------------------------------------
G-------4--------------------------------------------------------
D---6-------7-----4----6----6-4----------------------------------
A----------------------------------------------------------------
E----------------------------------------------------------------
    Yer bum titty bum, Pomp-i-dou

E----------------------------------------------------------------
B----------------------------------------------------------------
G----------------------------------------------------------------
D----------------------------------------------------------------
A---5-----5----7-7----9----12---11--9---11-----------------------
E----------------------------------------------------------------
    How's your father, and mind how you go

E----------------------------------------------------------------
B----------------------------------------------------------------
G----------------------------------------------------------------
D----------------------------------------------------------------
A---8--7--8--7--8--7--8--8--7--8--7--8--7------------------------
E------------------------------------------0--2--4--5------------


I Am Your Fantasy

Gong : Camembert Electrique

E----------------------------------------------------------------
B----------------------------------------------------------------
G----------------------------------------------------------------
D-------------------------4--------------------------------------
A------4-------5-7------5----------------------------------------
E----5-----------------------------------------------------------
 

Dynamite

Gong : Camembert Electrique


E----------------------------------------------------------------
B----------------------------------------------------------------
G----------------------------------------------------------------
D---7---7---7---x---x---x---x------------------------------------
A---6---6---6---x---x---x---x------------------------------------
E---5---5---5---x---x---x---x---5-6-7-6-5-0---5-6-7-6-5-0--------
    Dy-na-mite  (…muted…)   I am your animal…


E----------------------------------------------------------------
B----------------------------------------------------------------
G----------------------------------------------------------------
D----------------------------------------------------------------
A---6---6--6---6--6--7----6--------------------------------------
E----------------------5-----------------------------------------
    wicked old target, ya sun   (x8)


E----------------------------------------------------------------
B----------------------------------------------------------------
G----------------------------------------------------------------
D----------------------------------------------------------------
A---7----8--8---8--8---8---8---8---8----8-8--8---8---8-----------
E----------------------------------------------------------------
    your finger on the trigger and your body burning up


E----------------------------------------------------------------
B----------------------------------------------------------------
G-------------5-------6------------------------------------------
D----------6-------6-----7---------------------------------------
A------7---------------------------------------------------------
E----------------------------------------------------------------
       Cam-em-bert El-ec-trique

Fohat Digs Holes In Space

Gong : Camembert Electrique

 [bass]
G----------------------------------------------------------------
D----------------------------------------------------------------
A--------------7----7----7----7----7----7----7----7----7----7----
E----0----0------------------------------------------------------

 [saxophone]

E----------------------------------------------------------------
B---12-------------12---15---16--------13--------15---13---12----
G--------14---12------------------15--------14-------------------
D----------------------------------------------------------------
A----------------------------------------------------------------
E----------------------------------------------------------------

     G             F#              D              D

E---10--------------9--------------8--------------8--------------
B---12-------------11-------------10-------------10--------------
G---12-------------11-------------10-------------10--------------
D---12-------------11-------------10-------------10--------------
A---10--------------9--------------8--------------8--------------
E---10--------------9--------------8--------------8--------------

 (play next 2 tabs 4 times, move up 1 fret, play 4 times more)
      E                                    G

E----0------------------------------------3----------------------
B----0------------------------------------3----------------------
G----1------------------------------------4----------------------
D----2------------------------------------5----------------------
A----2------------------------------------5----------------------
E----0------------------------------------3----------------------
 Well help me sing this song I wanna stay living for much too long

             A                               B
E-----------5-------------------------------7--------------------
B-----------5-------------------------------7--------------------
G-----------6-------------------------------8--------------------
D-----------7-------------------------------9--------------------
A-----------7-------------------------------9--------------------
E-----------5-------------------------------7--------------------
 Now I wanna ride this big brass gong. Where am I babe?


E----------------------------------------------------------------
B-----7---------------------------7------------------------------
G---7------7---9---7-----7----------7---7---9---7----------------
D---------------------9-----7----------------------9-------------
A----------------------------------------------------------------
E----------------------------------------------------------------
    I gone and got me dirty shirt a hanging on the line
    
Tried So Hard

Gong : Camembert Electrique

(sorry - strings are all topsy-turvy)

E-----------4----------------------5----------4---------5-------
B-----------5----------------------5----------5---------5-------
G-----------4----------------------4----------4---------4-------
D---------------------------------------------------------------
A---------------------------------------------------------------
E---------------------------------------------------------------
    And you tried so hard to get there…

    E    E    A    A    E    E    A    G    E
E---------------------------------------------------------------
B---------------------------------------------------------------
G---------------------------------------------------------------
D---------------------------------------------------------------
A---------------------------------------------------------------
E---------------------------------------------------------------


E---------------------------------------------------------------
B---------------------------------------------------------------
G---------------------------------------------------------------
D---------------------------------------------------------------
A---2--------2----0--2---0------2----3---2----0---------0-------
E-------------------------------------------------2-------------
    Must     be   a  way for    you  to  make the big   time
    You      got  to lay the    la-  dy  at   the right time
    There'll come a  day for    drinking all  the sky   wine
    You      on-  ly say you're waiting  for  the right time

E---------------------------------------------------------------
B---------------------------------------------------------------
G---------------------------------------------------------------
D---------------------------------------------------------------
A---2--------2----0-2-------------0---0-2-----------------------
E-------------------------2---2---------------------------------
    There'll come a time, try and try a-gain

    C     F          D    G        C     F          D    A
E---------------------------------------------------------------
B---------------------------------------------------------------
G---------------------------------------------------------------
D---------------------------------------------------------------
A---------------------------------------------------------------
E---------------------------------------------------------------
    You believe, You who believe

  D                 C                 G                   A
E---------------------------------------------------------------
B---------------------------------------------------------------
G---------------------------------------------------------------
D---------------------------------------------------------------
A---------------------------------------------------------------
E---------------------------------------------------------------
  You believe that  you can take or   leave my love with  you
  You believe that  you are free to   choose what you can do
  You believe that  feeling nothing   makes you wise and  strong
  Tell me that what makes me love you also makes me       wrong

    D    D    A    D    D   D    D    A
E---------------------------------------------------------------
B---------------------------------------------------------------
G---------------------------------------------------------------
D---------------------------------------------------------------
A---------------------------------------------------------------
E---------------------------------------------------------------
    Look at me, Look at look at you, Look at me

    G              C               E
E---------------------------------------------------------------
B---------------------------------------------------------------
G---------------------------------------------------------------
D---------------------------------------------------------------
A---------------------------------------------------------------
E---------------------------------------------------------------
    I am not free, I'm not free, a hand flutters in my brain

           A                         D
E---------------------------------------------------------------
B---------------------------------------------------------------
G---------------------------------------------------------------
D---------------------------------------------------------------
A---------------------------------------------------------------
E---------------------------------------------------------------
    silken chords trembling into the waterfall

    E         A          A          A          G
E---------------------------------------------------------------
B---------------------------------------------------------------
G---------------------------------------------------------------
D---------------------------------------------------------------
A---------------------------------------------------------------
E---------------------------------------------------------------
    There the wise brown frog gives princely advice

        C      F         G
E---------------------------------------------------------------
B---------------------------------------------------------------
G---------------------------------------------------------------
D---------------------------------------------------------------
A---------------------------------------------------------------
E---------------------------------------------------------------
    but not to you who believe

Tropical Fish

Gong : Camembert Electrique

(sorry - strings are all topsy-turvy)

E---6-----------7-----------6-----------6------------------------
B---8-----------9-----------8-----------8------------------------
G---8-----------9-----------8-----------8------------------------
D---8-----------9-----------8-----------8------------------------
A---6-----------7-----------6-----------6------------------------
E---6-----------7-----------6-----------6------------------------
    Da da-da    daaaaaa,    da da-da    daaaaaa

E----------------------------------------------------------------
B----------------------------------------------------------------
G-------------------5----4---------------------------------------
D------------5--7---------------5--------------------------------
A-------7----------------------------7---------------------------
E---7-------------------------------------7----------------------
    O   shad-y  la- dy   what's your prob-lem
    Try-ing  to buy a    brand  new  hus- band
    All      I  wan-na   know   is   just what
    Hap-pen- ed to  your lat-   est  wis- dom

E----------------------------------------------------------------
B----------------------------------------------------------------
G----------------------------------------------------------------
D---7-----7------5---5-4---4-----5--5----------------------------
A---0-----0------0---0-0---0-----0--0----------------------------
E----------------------------------------------------------------
    Seems like a typ-i-cal witch to me
    Seems like a tropi-cal fish  to me

E----------------------------------------------------------------
B-----------------------------------5---------------5------------
G---7---7---7----5----7---7----7---------7----5--7----7-5--7-----
D----------------------------------------------------------------
A----------------------------------------------------------------
E----------------------------------------------------------------
    But you can't kid me, it's like that back in Sy-y-y-yd-ney

E----------------------------------------------------------------
B-----5-7-8-7-5-------5------------------------------------------
G---7-----------7-5-7---7-5----7-7-5-7-5----------5--------------
D----------------------------------------7-7-5-7-----------------
A--------------------------------------------------5------------?
E----------------------------------------------------------------


E---6------------8---------11-----------8------------------------
B---8-----------10---------13----------10------------------------
G---8-----------10---------13----------10------------------------
D---8-----------10---------13----------10------------------------
A---6------------8---------11-----------8------------------------
E---6------------8---------11-----------8------------------------
    Stranger and stranger, what are you doing

Selene

Gong : Angel's Egg

E----------------------------------------------------------------
B----------------------------------------------------------------
G----------------------------------------------------------------
D----------------------------------------------------------------
A---7--7-7--7---7---7---7--7-7-7--7------------------------------
E---5--5-5--5---5---5---5--5-5-5--5------------------------------
    Se-leee-ne, spi-rit of the moon (x2)


E----------------------------------------------------------------
B----------------------------------------------------------------
G----------------------------------------------------------------
D----------------------------------------------------------------
A---9--9----9--9----9--9----9----9----------2--------------------
E---7--7----7--7----7--7----7----7----------0--------------------
    My mind is made of you, tell me what to do


E----------------------------------------------------------------
B----------------------------------------------------------------
G----------------------------------------------------------------
D----------------------------------------------------------------
A---7---7-7--7-7--7-7--7-5--5-5--5-5--5-5------------------------
E---5---5-5--5-5--5-5--5-3--3-3--3-3--3-3------------------------



E----------------------------------------------------------------
B----------------------------------------------------------------
G----------------------------------------------------------------
D---------------3---------------3--------------------------------
A---------2-2-------------2-2------------------------------------
E---1-1-------------1-1------------------------------------------
    spi-            rit


E----------------------------------------------------------------
B----------------------------------------------------------------
G----------------------------------------------------------------
D----------------------------------------------------------------
A----------------------------------------------------------------
E---5---7---8--7----5---7----------------------------------------
    You can do what you want

newsletter · · privacy · contact · magic hat
e-mail me when this page changes?
get website hosting by siteground