gong mandalaplanet gong tribal




Gong : Magick Brother
Mystic Sister, Magick Brother | Rational Anthem | Glad To Sad To Say | Chainstore Chant |Pretty Miss Titty | Fable Of A Fredfish | Hope You Feel OK | Ego | Gong Song | Princess Dreaming | 5 and 20 Schoolgirls | Cos You Got Green Hair

Mystic Sister, Magick Brother

Gong : Magick Brother

 (intro)    D     C     D     C     D     C     D     C
E----------------------------------------------------------------
A----------------------------------------------------------------
D----------------------------------------------------------------
G----------------------------------------------------------------
B----------------------------------------------------------------
E----------------------------------------------------------------


    D                  C        D                  C
E----------------------------------------------------------------
A----------------------------------------------------------------
D----------------------------------------------------------------
G----------------------------------------------------------------
B----------------------------------------------------------------
E----------------------------------------------------------------
    You are the magic  brother, you are the one in love
    You are the mystic sister,  you are the one in love

 ?   (Whose are these words I sing and what does my guitar sing)
    (I am not this, this is not me I'm only passing)

             A   
E----------------------------------------------------------------
A----------------------------------------------------------------
D----------------------------------------------------------------
G----------------------------------------------------------------
B----------------------------------------------------------------
E----------------------------------------------------------------
    well the more the know the more you love and then more and more

        F       E         D#        D
E-------8-------7---------6---------5----------------------------
A-------8-------7---------6---------5----------------------------
D------10-------9---------8---------7----------------------------
G------10-------9---------8---------7----------------------------
B------10-------9---------8---------7----------------------------
E-------8-------7---------6---------5----------------------------
    We  see the sea be-   neath the sea
    The Golden  Gate has  lost the  key
    And in the  eyes of   every     man
    For Krishna there you are a-    gain

              A
E----------------------------------------------------------------
A----------------------------------------------------------------
D----------------------------------------------------------------
G----------------------------------------------------------------
B----------------------------------------------------------------
E----------------------------------------------------------------
   But if you know what you're doing
          and it's the only way
          You give your life and you live your life
      and you give your games away
       You're doing nothing about the mess
          you want yourself to drown
       You're gonna get up high just so
              you can look back down 


                   C#        Cm
 E------------------4---------3----------------------------------
 A------------------4---------5----------------------------------
 D------------------6---------5----------------------------------
 G------------------6---------4----------------------------------
 B------------------6---------3----------------------------------
 E------------------4---------3----------------------------------
    Well every-    thing you made
    A flicker of   light and shade 
    A body to      wonder    by
    A flicker of   sound in  side

    Maybe we'll    all find    out
    Just what it's all a-     bout
    And listening  for the    sound
    It's happening under-     ground
    

Rational Anthem

Gong : Magick Brother

E----------------------------------------------------------------
B-----------------------0----------------------------------------
G-------------0--------------0---------0-------------------------
D--------4---------4--------------4------------------------------
A----------------------------------------------------------------
E---0------------------------------------------------------------
    Oh,       my


E----------------------------------------------------------------
B----------------------------------------------------------------
G----------0---------------------------0-------------------------
D-------4------4-------------0--------------0---------0----------
A---3-------------------4---------4--------------4---------------
E------------------0---------------------------------------------
    sad to say goodbye


E----------------------------------------------------------------
B--------------------------------------------------0-------------
G--------------0----------------0------------0--------0-----0----
D-----------4------4-------4-------0------4-----4--------4-------
A-------4--------------3-----------------------------------------
E--------------------------------------0-------------------------
    goodbye to all the children in the world

    A
E----------------------------------------------------------------
B----------------------------------------------------------------
G----------------------------------------------------------------
D----------------------------------------------------------------
A----------------------------------------------------------------
E----------------------------------------------------------------
    Close your eyes, win the prize
    Get to Christ, he'll crucify you

          D                 E                      A
E----------------------------------------------------------------
B----------------------------------------------------------------
G----------------------------------------------------------------
D----------------------------------------------------------------
A----------------------------------------------------------------
E----------------------------------------------------------------
    There ain't no wise man left in your eyes man

          D            G           E                A
E----------------------------------------------------------------
B----------------------------------------------------------------
G----------------------------------------------------------------
D----------------------------------------------------------------
A----------------------------------------------------------------
E----------------------------------------------------------------
    He'll take all our crimes man, God wins all the time man


[an error occurred while processing this directive]

Gongsong

Gong : Magick Brother

(unfinished)

E------2-------------0--------0---------0------------------------
B---3------3-----3-----3----3---3-----2---2----------------------
G-2------------2----------0---------0----------------------------
D----------------------------------------------------------------
A----------------------------------------------------------------
E----------------------------------------------------------------

    Why do you feel  so   good?
    Why do you feel  so   bad?
    Why do you think you  should?
    Why do you ask   your dad?


E----------------------------------------------------------------
B----------------------------------------------------------------
G----------------------------------------------------------------
D----------------------------------------------------------------
A----------------------------------------------------------------
E----------------------------------------------------------------



E----------------------------------------------------------------
B----------------------------------------------------------------
G----------------------------------------------------------------
D----------------------------------------------------------------
A----------------------------------------------------------------
E----------------------------------------------------------------



E----------------------------------------------------------------
B----------------------------------------------------------------
G----------------------------------------------------------------
D----------------------------------------------------------------
A----------------------------------------------------------------
E----------------------------------------------------------------


5 and 20 Schoolgirls
Gong : Magick Brother

 (intro)
E----------------------------------------------------------------
A----------------------------------------------------------------
D---5--5--5----5--5----5--5----5--5----5--5----5---5----5--5-----
G---0--0--0----0--0----0--0----0--0----0--0----0---0----0--0-----
B----------------------------------------------------------------
E----------------------------------------------------------------



E----------------------------------------------------------------
A----------------------------------------------------------------
D---4--------4--------3-----3-----------2----2--------1----1-----
G---0--------0--------0-----0-----------0----0--------0----0-----
B----------------------------------------------------------------
E----------------------------------------------------------------
    Five and twenty   schoolgirls       lost in the   fog
    No-  bo- dy  can  find them,    not even with a   dog
    Eve- ry  bo- dy   wants to          put them in a bog, but
    lit- tle do  they know that they're hiding in a   log

    D
    They got a big brass clock that goes tick tock   

                     G   F    D#  D    G   F    F#  D
    and they're just waiting, waiting, waiting, waiting
    waiting, waiting, wa-wa-waiting   

    A                 F#   
    Mothers  in a     co-   ma
    Drinking too much so-   da, You could
    try to   te-le-   phone her

    A     F#         G      C     F      E
    all a-lone don't let us go by astral plane

newsletter · · privacy · contact · magic hat
e-mail me when this page changes?
get website hosting by siteground