gong mandalaplanet gong tribal




Here & Now : Fantasy Shift
Telly Song | Ludwig | Jacques Cousteau Loves Anchovies | Fantasy Shift | Glad You're Here | The Mega Number | Hold On I'm Coming | Secrets The Man Who Sold The World | Ways To Be Free

Glad You're Here (guitar)
Here & Now : Fantasy Shift

4/4  F minor

Verse 1:

   1 & 2 & 3 & 4 &   1 & 2 & 3 & 4 & 
||-----------------|-----------------||
||-----------------|-----------------||   
||-----------------|-----------------||   
||-----6-6-4-4-3-3-|-----------------||   
||-6-6-------------|-4-4---1-4-1-4-4-||  X 8

  Things were looking pretty black
  No going forward, no turning back
  I couldn't see why this was happening to me
  But then you turned around and smiled at me, and I'm...
  
Chorus :

  1 & 2 & 3 & 4 &   1 & 2 & 3 & 4 &   
|-----------------|-----------------|
|-----------------|-----------------| 
|-----------------|-----------------|
|-8---------------|-6---------------| 
|-8---------------|-6---------------|
|-6---------------|-4---------------| 

  So glad you're here                 


  1 & 2 & 3 & 4 &   1 & 2 & 3 & 4 &
|-----------------|-----------------| 
|-----------------|-----------------|
|-8---------------|-6---6---6-------|
|-8---------------|-6---6---6-------|
|-6---------------|-4---4---4-------|
|-----------------|-----------------|
  So glad you're here


Verse 2:

   1 & 2 & 3 & 4 &   1 & 2 & 3 & 4 & 
||-----------------|-----------------||
||-----------------|-----------------||   
||-----------------|-----------------||   
||-----6-6-4-4-3-3-|-----------------||   
||-6-6-------------|-4-4---1-4-1-4-4-||  X 8

  I don't expect you to stay with me
  I really want to see you floating free
  But there are times when I need your touch
  I gotta tell you that I love you so much, and I'm...


Chorus : 

  1 & 2 & 3 & 4 &   1 & 2 & 3 & 4 &   
|-----------------|-----------------|
|-----------------|-----------------| 
|-----------------|-----------------|
|-8---------------|-6---------------| 
|-8---------------|-6---------------|
|-6---------------|-4---------------| 

  So glad you're here                 


  1 & 2 & 3 & 4 &   1 & 2 & 3 & 4 &
|-----------------|-----------------| 
|-----------------|-----------------|
|-8---------------|-6---6---6-------|
|-8---------------|-6---6---6-------|
|-6---------------|-4---4---4-------|
|-----------------|-----------------|
  So glad you're here

Break/Solo:

(i)

  1 & 2 & 3 & 4 &   1 & 2 & 3 & 4 &   
|-----------------|-----------------|  
|-----------------|-----------------|  
|-----------------|-----------------|
|-----------------|-----------------|
|-8---------------|-----------------|
|-----------------|-----------------|

|-----------------|-----------------| 
|-----------------|-----------------| 
|-----------------|-----------------| 
|-----------------|-----------------| 
|-----------------|-----------------| 
|-----------------|-----------------| 

(ii)

   1 & 2 & 3 & 4 &   1 & 2 & 3 & 4 &   
||-----------------|-----------------|
||-----------------|-----------------|  
||-----------------|-----------------|
||-----------------|-----------------|
||-8---------------|--------------10-|
||-----------------|-----------------|

 |-----------------|-----------------| 
 |-----------------|-----------------| 
 |-----------------|-----------------| 
 |-----------------|--------------10-|
 |-11--------------|-----------------|

   1 & 2 & 3 & 4 &   1 & 2 & 3 & 4 &   
 |-----------------|-----------------|
 |-----------------|-----------------|
 |-----------------|-----------------|
 |-11--------------|--------------10-|
 |-----------------|-----------------|
 |-----------------|-----------------|

 |-----------------|-----------------||
 |-----------------|-----------------||
 |-----------------|-----------------||
 |-----------------|-----------------||
 |-8---------------|--------------10-||
 |-----------------|-----------------|| X 2

(iii) (solo)

  1 & 2 & 3 & 4 &   1 & 2 & 3 & 4 &   1 & 2 & 3 & 4 &
|-----------------|-----------------|-----------------|
|-----------------|-----------------|-----------------|
|-----------------|-10-----------10-|-----------------|
|--------------10-|---10------------|-----------------|
|-8--8-10-11-11---|-----11\10/11----|-----------------|
|-----------------|-----------------|-----------------|

  1 & 2 & 3 &  4 &     1 &  2  &  3  &  4  &    1 & 2 & 3 & 4 &
|-------------------|-------------------------|----------------|
|-------------------|-------------------------|----------------|
|-------------------|-13-12-10----------------|----------------|
|-11-10-11-10-11-10-|----------13-11-10-11-10-|-10-10-10-------|
|-------------------|-------------------------|----------------|
|-------------------|-------------------------|----------------|


Chorus x 1

Verse riff x 2

Chorus x 4


Glad You’re Here (bass)
Here & Now, Fantasy Shift

Time signature : (4/4) Key : (F minor)

Verse 1 :

     1 & 2 & 3 & 4 &   1 & 2 & 3 & 4 &
  ||-----------------|------------------||   
  ||-----------------|-------3---3------||   
  ||-----6-6-4-4-3-3-|------------------||   
  ||-6-6-------------|-4-4-----4---4-4--||  X 8

     Things were looking pretty black
     No going forward, no turning back
     I couldn't see why this was happening to me
     But then you turned around and smiled at me, and I'm...
Chorus :

     1 & 2 & 3 & 4 &   1 & 2 & 3 & 4 &  
   |-----------------|-----------------|
   |-----------------|-----------------|  
   |-----------------|-----------------|
   |-6-6-6-6-6-6-6-6-|-4-4-4-4-4-4-4-4-| 

     So glad you're here     

     1 & 2 & 3 & 4 &   1 & 2 & 3 & 4 &            
   |-----------------|-----------------|  
   |-----------------|-----------------|
   |-6-6-6-6-6-6-6-6-|-4-4-4-4-4-4-4-4-|
   |-----------------|-----------------|

    So glad you're here


     1 & 2 & 3 & 4 &   1 & 2 & 3 & 4 &  
   |-----------------|-----------------|
   |-----------------|-----------------|  
   |-----------------|-----------------|
   |-6-6-6-6-6-6-6-6-|-4-4-4-4-4-4-4-4-| 

     So glad you're here     


     1 & 2 & 3 & 4 &   1 & 2 & 3 & 4 &   
   |-----------------|-----------------| 
   |-----------------|-----------------|   
   |-6-6-6-6-6-6-6-6-|-4---4---4-4-4-4-| 
   |-----------------|-----------------|  

     So glad you're here                  
Verse 2 :

      1 & 2 & 3 & 4 &   1 & 2 & 3 & 4 &
   ||-----------------|------------------||   
   ||-----------------|-------3---3------||   
   ||-----6-6-4-4-3-3-|------------------||   
   ||-6-6-------------|-4-4-----4---4-4--||  X 8

      I don't expect you to stay with me
      I really want to see you floating free
      But there are times when I need your touch
      I gotta tell you that I love you so much, and I'm...
Chorus :

     1 & 2 & 3 & 4 &   1 & 2 & 3 & 4 &  
   |-----------------|-----------------|
   |-----------------|-----------------|  
   |-----------------|-----------------|
   |-6-6-6-6-6-6-6-6-|-4-4-4-4-4-4-4-4-| 

     So glad you're here     

     1 & 2 & 3 & 4 &   1 & 2 & 3 & 4 &            
   |-----------------|-----------------|  
   |-----------------|-----------------|
   |-6-6-6-6-6-6-6-6-|-4-4-4-4-4-4-4-4-|
   |-----------------|-----------------|

    So glad you're here


     1 & 2 & 3 & 4 &   1 & 2 & 3 & 4 &  
   |-----------------|-----------------|
   |-----------------|-----------------|  
   |-----------------|-----------------|
   |-6-6-6-6-6-6-6-6-|-4-4-4-4-4-4-4-4-| 

     So glad you're here     


     1 & 2 & 3 & 4 &   1 & 2 & 3 & 4 &   
   |-----------------|-----------------| 
   |-----------------|-----------------|   
   |-6-6-6-6-6-6-6-6-|-4---4---4-4-4-4-| 
   |-----------------|-----------------|  

     So glad you're here                  

Break/solo:

(i)

       1 & 2 & 3 & 4 &   1 & 2 & 3 & 4 &   
     |-----------------|-----------------|
     |-----------------|-----------------|
     |-----------------|-----------------|
     |-1---------------|-----------------|

       1 & 2 & 3 & 4 &   1 & 2 & 3 & 4 &
     |-----------------|-----------------|
     |-----------------|-----------------|
     |-----------------|-----------------|
     |-----------------|------------13/1-|

(ii)

       1 & 2 & 3 & 4 &   1 & 2 & 3 & 4 &   
    ||-----------------|-----------------|
    ||-----------------|-----------------|
    ||-----------------|-----------------|
    ||-1---1-1-1-1-1-1-|-1-1-1-1-1-1-1-3-|

       1 & 2 & 3 & 4 &   1 & 2 & 3 & 4 &
     |-----------------|-----------------|
     |-----------------|-----------------|
     |-----------------|---------------3-|
     |-4---4-4-4-4-4-4-|-4-4-4-4-4-4-4---|

       1 & 2 & 3 & 4 &   1 & 2 & 3 & 4 &   
     |-----------------|-----------------|
     |-----------------|-----------------|
     |-4---4-4-4-4-4-4-|-4-4-4-4-4-4-4-3-|
     |-----------------|-----------------|

       1 & 2 & 3 & 4 &   1 & 2 & 3 & 4 &
     |-----------------|-----------------||
     |-----------------|-----------------||
     |-----------------|-----------------||
     |-1---1-1-1-1-1-1-|-1-1-1-1-1-1-1-3-|| X 2
     
(iii)

       1 & 2 & 3 & 4 &   1 & 2 & 3 & 4 &  
     |-----------------|-----------------|
     |-----------------|-----------------|
     |-----------------|-----------------|
     |-1---1-1-1-1-1-1-|-1-1-1-1-1-1-1-3-|

       1 & 2 & 3 & 4 &   1 & 2 & 3 & 4 &
     |-----------------|-----------------|
     |-----------------|-----------------|
     |-----------------|---------------3-|
     |-4---4-4-4-4-4-4-|-4-4-4-4-4-4-4---|

       1 & 2 & 3 & 4 &   1 & 2 & 3 & 4 &   
     |-----------------|-----------------|
     |-----------------|-----------------|
     |-4---4-4-4-4-4-4-|-4-4-4-4-4-4-4-4-|
     |-----------------|-----------------|

       1 & 2 & 3 & 4 &   1 & 2 & 3 & 4 &
     |-----------------|-----------------| 
     |-----------------|-----------------|
     |-3-3-3-3-3-3-3-3-|-3-3-3-3-3-3-3-3-|
     |-----------------|-----------------|
Chorus :

     1 & 2 & 3 & 4 &   1 & 2 & 3 & 4 &  
   |-----------------|-----------------|
   |-----------------|-----------------|  
   |-----------------|-----------------|
   |-6-6-6-6-6-6-6-6-|-4-4-4-4-4-4-4-4-| 

     So glad you're here     

     1 & 2 & 3 & 4 &   1 & 2 & 3 & 4 &            
   |-----------------|-----------------|  
   |-----------------|-----------------|
   |-6-6-6-6-6-6-6-6-|-4-4-4-4-4-4-4-4-|
   |-----------------|-----------------|

    So glad you're here


     1 & 2 & 3 & 4 &   1 & 2 & 3 & 4 &  
   |-----------------|-----------------|
   |-----------------|-----------------|  
   |-----------------|-----------------|
   |-6-6-6-6-6-6-6-6-|-4-4-4-4-4-4-4-4-| 

     So glad you're here     


     1 & 2 & 3 & 4 &   1 & 2 & 3 & 4 &   
   |-----------------|-----------------| 
   |-----------------|-----------------|   
   |-6-6-6-6-6-6-6-6-|-4---4---4-4-4-4-| 
   |-----------------|-----------------|  

     So glad you're here               
Verse :

     1 & 2 & 3 & 4 &   1 & 2 & 3 & 4 &
  ||-----------------|------------------||   
  ||-----------------|-------3---3------||   
  ||-----6-6-4-4-3-3-|------------------||   
  ||-6-6-------------|-4-4-----4---4-4--||  X 2
Chorus/Outro :

     1 & 2 & 3 & 4 &   1 & 2 & 3 & 4 &  
   |-----------------|-----------------|
   |-----------------|-----------------|  
   |-----------------|-----------------|
   |-6-6-6-6-6-6-6-6-|-4-4-4-4-4-4-4-4-| 

     So glad you're here     

     1 & 2 & 3 & 4 &   1 & 2 & 3 & 4 &            
   |-----------------|-----------------|  
   |-----------------|-----------------|
   |-6-6-6-6-6-6-6-6-|-4-4-4-4-4-4-4-4-|
   |-----------------|-----------------|

    So glad you're here


     1 & 2 & 3 & 4 &   1 & 2 & 3 & 4 &  
   |-----------------|-----------------|
   |-----------------|-----------------|  
   |-----------------|-----------------|
   |-6-6-6-6-6-6-6-6-|-4-4-4-4-4-4-4-4-| 

     So glad you're here     


     1 & 2 & 3 & 4 &   1 & 2 & 3 & 4 &   
   |-----------------|-----------------| 
   |-----------------|-----------------|   
   |-6-6-6-6-6-6-6-6-|-4---4---4-4-4-4-| 
   |-----------------|-----------------|  X 4

     So glad you're here               
     

Secrets

Here & Now : Fantasy Shift

Bass Tab

Time signature: 4/4

Verse 1:

    A       C#      F#      F
  
  |---------------------------------|| 
 
  |-----------------4-4---4-3-3---3-|| 
 
  |-0-0---0-4-4---4-----------------||
 
  |---------------------------------|| X 22
 
   There are no secrets, 
   You either know it or you don't
   It’s right in front of your noses, 
   You believe it or you don't 
   Follow your instincts, 
   If that's what you want to do 
   But you gotta do something 
   To get out of the zoo
   
Chorus 1:

    D   A   C   Em   F   Em  D     A
 
  |----------------|--------------------| 
 
  |----------------|--------------------| 
 
  |-5---0----------|-8-8-7---5-5-5-0----| 
 
  |---------8---0--|--------------------| 
 
                     Look at them

    D   A   C   Em    G   F   Em  D
 
  |----------------|--------------------| 
 
  |----------------|--------------------| 
 
  |-5---0---3------|--------------5-----| 

  |-------------0--|--3-3-1---0---------| 

                     Searching for secrets

    D   A   C   Em   F   Em  D     A
  |----------------|--------------------| 
 
  |----------------|--------------------| 
 
  |-5---0----------|-8-8-7---5-5-5-0----| 
 
  |---------8---0--|--------------------| 
 
                     Look at them

    D   A   C   Em    G   F   Em  D
 
  |----------------|--------------------| 
 
  |----------------|--------------------| 
 
  |-5---0---3------|--------------5-----| 
 
  |-------------0--|--3-3-1---0---------| 

                     Searching for a leader
Verse 2:

    A       C#      F#      F
  |---------------------------------|| 
 
  |-----------------4-4---4-3-3---3-|| 
 
  |-0-0---0-4-4---4-----------------||
 
  |---------------------------------|| X 21
 
    I said there are no secrets, 
    But you can hide it if you like 
    And you can pick your religion, 
    But does there have to be a fight 
    Or you can take it all over, 
    If that’s what you want to do 
    But you gotta do something 
    To get out of the zoo, 
    To get out of the zoo, 
    To get out of the zoo, to get out! 
Chorus 2:

    D   A   C   Em   F   Em  D     A
 
  |----------------|--------------------| 
 
  |----------------|--------------------| 
 
  |-5---0----------|-8-8-7---5-5-5-0----| 
 
  |---------8---0--|--------------------| 
 
                     Look at them

    D   A   C   Em    G   F   Em  D
 
  |----------------|--------------------| 
 
  |----------------|--------------------| 
 
  |-5---0---3------|--------------5-----| 
 
  |-------------0--|--3-3-1---0---------| 

                     Searching for secrets

    D   A   C   Em   F   Em  D     A
  |----------------|--------------------| 
 
  |----------------|--------------------| 
 
  |-5---0----------|-8-8-7---5-5-5-0----| 
 
  |---------8---0--|--------------------| 
 
                     Look at them

    D   A   C   Em    G   F   Em  D
 
  |----------------|--------------------| 
 
  |----------------|--------------------| 
 
  |-5---0---3------|--------------5-----| 
 
  |-------------0--|--3-3-1---0---------| 

                     Searching for a lover
Break:

    Bm               D                F#
  |----------------|----------------|----------------|
  |----------------|----------------|-4--4-4-4-4-4-4-|
  |-2--2-2-2-2-2-2-|-5--5-5-5-5-5-5-|----------------|
  |----------------|----------------|----------------|


    Bm   A   G   F#    Em  D       C
  |-4--4-2-2-0-0---|-----------------||
  |--------------4-|-4-2-2-0-0-------||
  |----------------|-----------5-5-3-||
  |----------------|-----------------||  X 6
 
Outro:

    Bm      A     G    F#    Em  D       C         
  |----------------------|-----------------|
  |----------------------|-----------------|
  |-14--14-12-12-10-10-9-|-9-7-7-5-5-5-5-3-|
  |----------------------|-----------------|


    Bm   A   G   F#    Em  D           C   Bm    

  |----------------|---------------------|-----------------|
  |----------------|---------------------|-----------------|
  |-2--2-0-0-------|---------------------|-----------------|
  |----------3-3-2-|-2-0-0-10-10-10-10-8-|-7---------------|

newsletter · · privacy · contact · magic hat
e-mail me when this page changes?
get website hosting by siteground