gong mandalaplanet gong tribal




Planetgong : Floating Anarchy
Floating Anarchy Radio | It's The Time of Your Life | Stoned Innocent Frankenstein | New World Transformation: No More Sages | Poet For Sale | Pot Head Pixies | Astral Alien | Much Too Old | We're Gonna Change the World | Teeth | Allez Ali Baba Blacksheep Have You Any Bullshit: Mama Maya Mantram | Opium For The People | Astral Alien

 Floating Anarchy Guitar Tab

 Here & Now : Floating Anarchy Live 1977 

 Time Signature: 4/4

 Intro

     E5 
     e e e. s e e ssss      
 | |-------------------| |
 |.|-------------------|.|
 | |-------------------| |  x 12
 | |-----9--9-9-9-9999-| | 
 |.|-----7--7-7-7-7777-|.|
 | |-0-0---------------| |


 Verse

     E5                    C  C  B  B
     e e e. s e e ssss  x3 Q  Q  Q  Q
 | |-------------------| |------------||
 |.|-------------------|.|------------||
 | |-------------------| |------------||
 | |-----9--9-9-9-9999-| |-5--5--4--4-||
 |.|-----7--7-7-7-7777-|.|-3--3--2--2-|| 
 | |-0-0---------------| |------------||

     E5                    B  B  C  C
     e e e. s e e ssss  x3 Q  Q  Q  Q
 | |-------------------| |------------||
 |.|-------------------|.|------------||
 | |-------------------| |------------||
 | |-----9--9-9-9-9999-| |-4--4--5--5-||
 |.|-----7--7-7-7-7777-|.|-2--2--3--3-|| 
 | |-0-0---------------| |------------||

     E5                    C  C  B  B
     e e e. s e e ssss  x3 Q  Q  Q  Q
 | |-------------------| |------------||
 |.|-------------------|.|------------||
 | |-------------------| |------------||
 | |-----9--9-9-9-9999-| |-5--5--4--4-||
 |.|-----7--7-7-7-7777-|.|-3--3--2--2-|| 
 | |-0-0---------------| |------------||

     E5                    B  B  C  C
     e e e. s e e ssss  x3 Q  Q  Q  Q
 | |-------------------| |------------||
 |.|-------------------|.|------------||
 | |-------------------| |------------||
 | |-----9--9-9-9-9999-| |-4--4--5--5-||
 |.|-----7--7-7-7-7777-|.|-2--2--3--3-|| 
 | |-0-0---------------| |------------||

    E5                 E5 
    e e e. s e e ssss   e e Q  Q  Q
 ||-------------------|--------------||
 ||-------------------|--------------||
 ||-------------------|--------------|| 
 ||-----9--9-9-9-9999-|-----9--9--9--|| 
 ||-----7--7-7-7-7777-|-----7--7--7--||
 ||-0-0---------------|-0-0----------||


 Chorus
    E5            G5              D5           A5
    Q.  e  H      Q.   e   H      Q.  e  H     Q.  e  H.
 ||-------------|---------------|------------|------------|
 ||-------------|---------------|------------|------------|
 ||-------------|---------------|------------|-9--(9)-9---|
 ||-9--(9)-9----|-12--(12)-12---|-7--(7)-7---|-7--(7)-7---|
 ||-7--(7)-7----|-10--(10)-10---|-5--(5)-5---|------------|
 ||-------------|---------------|------------|------------|

   (A5)         A5     B5          G5          C5 
     W          Q ss e Q   e  e    Q  s s  e   Q   e  e    x 3
 ||---------| |------------------|-----------------------| |
 ||---------|.|------------------|-----------------------|.|
 ||-(9)-----| |-9-99-9-11--11-11-|-------------12--12-12-| |
 ||-(7)-----| |-7-77-7-9---9--9--|-12-1212-12--10--10-10-| |
 ||---------|.|------------------|-10-1010-10------------|.|
 ||---------| |------------------|-----------------------| | 

 Repeat Intro X 8?
 Repeat Verse
 Repeat Chorus

 Bridge 

   C      D            E        G         A
   H   Q  Q    (Q)  Q  H     Q  H    Q    W
 |-----------|-------------|------------|--------------|
 |-----------|-------------|------------|--------------|
 |-----------|-------------|------------|--------------|
 |-----------|-------------|------------|--------------|
 |-3---3--5--|-(5)--5--7---|-7--10---10-|-12-----------| 
 |-----------|-------------|------------|--------------|

 Kommercial Radio Bit: (please refer to original track for timings)

 A 
 This is floating anarchy radio.... broadcasting brain to brain....

 C 
 And the news today is... fascism, communism, capitalism, socialism are..

 D
 Obsolete...... Better watch out you rich kids......

 E  
 Here comes the third world.......

 G                                          
 Scaring you........

 A
 You'd better make it with floating free... anarchy!

 Outro:

     A5                          C5
     Q Q.  e e e   Q Q.  e e e   Q Q.  e e e   Q Q.  e e e   x 2
 | |-------------|-------------|-------------|-------------| |
 |.|-------------|-------------|-------------|-------------|.|
 | |-------------|-------------|-------------|-------------| |
 | |-------------|-------------|-5-5---5-5-5-|-5-5---5-5-5-| |
 |.|-7-7---7-7-7-|-7-7---7-7-7-|-3-3---3-3-3-|-3-3---3-3-3-|.|
 | |-5-5---5-5-5-|-5-5---5-5-5-|-------------|-------------| |

    D  D C D  D C   D  D C D C D C   F5                F5
    Q  e e Q  e e   Q  e e e e e e   e e e e e e e e   e e e e e e e e
 ||---------------|----------------|-----------------|-----------------| |
 ||---------------|----------------|-----------------|-----------------|.|
 ||---------------|----------------|-5-5-5-5-5-5-5-5-|-5-5-5-5-5-5-5-5-| |
 ||---------------|----------------|-3-3-3-3-3-3-3-3-|-3-3-3-3-3-3-3-3-| |
 ||-5--5-3-5--5-3-|-5--5-3-5-3-5-3-|-----------------|-----------------|.|
 ||---------------|----------------|-----------------|-----------------| |

 Play the Outro 4 times

 Ending:

    Q    H.
 ||------------||
 ||------------||
 ||------------||
 ||-7----7-----||
 ||-7----7-----||
 ||-5----5-----||


 Notation Key:

 W = Whole note
 H = Minim (Half note)
 Q = Crotchet (Quarter note)
 e = Quaver (8th note)
 s = Semiquaver (16th note)
 . = dotted note (+ half notes value)
 ()= Hold note
 

Poet For Sale

Daevid Alle : "Now is the Happiest Time of your Life

E----5--------------0----0---------------------------------------
B--------------6--------------6---------6------------------------
G---------7------------------------7-----------------------------
D----------------------------------------------------------------
A----------------------------------------------------------------
E----------------------------------------------------------------
 (x2)



E-----6--------------0----0--------------------------------------
B---------------6--------------6---------6-----------------------
G----------7------------------------7----------------------------
D----------------------------------------------------------------
A----------------------------------------------------------------
E----------------------------------------------------------------
 (x2)



(2nd guitar part, played over top of 1st guitar part)
E----------------------------------------------------------------
B--------------3----1--------------------------------------------
G---------2--------------2---------------------------------------
D----3------------------------3----------------------------------
A----------------------------------------------------------------
E----------------------------------------------------------------
 (x2)


E----------------------------------------------------------------
B----------------------------------------------------------------
G---------3---------5---------3----------------------------------
D----3---------3---------3---------3-----------------------------
A----------------------------------------------------------------
E----------------------------------------------------------------
 (x2)
 

We're Gonna Change the World

Planet Gong : Live Floating Anarchy '91

(partial)

E---4---3---------------------1------4--------3------------------
B---6---5---------------------3------6--------5------------------
G---6---5---------------------3------6--------5------------------
D---6---5---------------------3------6--------5------------------
A---4---3---------------------1------4--------3------------------
E---4---3---------------------1------4--------3------------------
 (x3)    It's the world of vibration; must be again
 
newsletter · · privacy · contact · magic hat
e-mail me when this page changes?
get website hosting by siteground