gong mandalaplanet gong tribal




Steve Hillage : Fish Rising
Solar Music Suite | Sun Song | Canterbury Sunrise | Hiram Afterglid Meets the Dervish | Sun Song (Reprise) | Fish | Meditation of the Snake | The Salmon Song | Salmon Pool | Solomon's Atlantis Salmon | Swimming with the Salmon | King of the Fishes | Aftaglid | Sun Moon Surfing | The Great Wave and the Boat of Hermes | The Silver Ladder | Astral Meadows | The Lafta Yoga Song | Glidding | The Golden Vibe/Outglid TITLE | TITLE | TITLE | TITLE

Aftaglid

Steve Hillage : Fish Rising

(Part 3)

 (4x)
E ----------------------------5--(6)--5--------------------------
B ------------------------5--------------------------------------
G ----------------5---3------------------------------------------
D --------5---3--------------------------------------------------
A ----3----------------------------------------------------------
E ---------------------------------------------------------------


 (2x)
E ----------------------------7--(8)--7--------------------------
B ------------------------7--------------------------------------
G ----------------7---5------------------------------------------
D --------7---5--------------------------------------------------
A ----5----------------------------------------------------------
E ---------------------------------------------------------------
 
newsletter · · privacy · contact · magic hat
e-mail me when this page changes?
get website hosting by siteground